  0
SECTION
  2
HEADER
  9
$ACADVER
  1
AC1009
  9
$INSBASE
 10
0.0
 20
0.0
 30
0.0
  9
$EXTMIN
 10
0.0
 20
-0.2160123812273247
 30
0.0
  9
$EXTMAX
 10
0.14002861328125
 20
0.0000000002173484
 30
0.0
  9
$LIMMIN
 10
0.0
 20
0.0
  9
$LIMMAX
 10
420.0
 20
297.0
  9
$ORTHOMODE
 70
     1
  9
$REGENMODE
 70
     1
  9
$FILLMODE
 70
     1
  9
$QTEXTMODE
 70
     0
  9
$MIRRTEXT
 70
     0
  9
$DRAGMODE
 70
     2
  9
$LTSCALE
 40
1.0
  9
$OSMODE
 70
  2079
  9
$ATTMODE
 70
     1
  9
$TEXTSIZE
 40
2.5
  9
$TRACEWID
 40
1.0
  9
$TEXTSTYLE
  7
STANDARD
  9
$CLAYER
  8
0
  9
$CELTYPE
  6
BYLAYER
  9
$CECOLOR
 62
   256
  9
$DIMSCALE
 40
1.0
  9
$DIMASZ
 40
2.5
  9
$DIMEXO
 40
0.625
  9
$DIMDLI
 40
3.75
  9
$DIMRND
 40
0.0
  9
$DIMDLE
 40
0.0
  9
$DIMEXE
 40
1.25
  9
$DIMTP
 40
0.0
  9
$DIMTM
 40
0.0
  9
$DIMTXT
 40
2.5
  9
$DIMCEN
 40
2.5
  9
$DIMTSZ
 40
0.0
  9
$DIMTOL
 70
     0
  9
$DIMLIM
 70
     0
  9
$DIMTIH
 70
     0
  9
$DIMTOH
 70
     0
  9
$DIMSE1
 70
     0
  9
$DIMSE2
 70
     0
  9
$DIMTAD
 70
     1
  9
$DIMZIN
 70
     8
  9
$DIMBLK
  1

  9
$DIMASO
 70
     1
  9
$DIMSHO
 70
     1
  9
$DIMPOST
  1

  9
$DIMAPOST
  1

  9
$DIMALT
 70
     0
  9
$DIMALTD
 70
     3
  9
$DIMALTF
 40
0.03937007874016
  9
$DIMLFAC
 40
1.0
  9
$DIMTOFL
 70
     1
  9
$DIMTVP
 40
0.0
  9
$DIMTIX
 70
     0
  9
$DIMSOXD
 70
     0
  9
$DIMSAH
 70
     0
  9
$DIMBLK1
  1

  9
$DIMBLK2
  1

  9
$DIMSTYLE
  2
ISO-25
  9
$DIMCLRD
 70
     0
  9
$DIMCLRE
 70
     0
  9
$DIMCLRT
 70
     0
  9
$DIMTFAC
 40
1.0
  9
$DIMGAP
 40
0.625
  9
$LUNITS
 70
     2
  9
$LUPREC
 70
     4
  9
$SKETCHINC
 40
1.0
  9
$FILLETRAD
 40
0.0
  9
$AUNITS
 70
     0
  9
$AUPREC
 70
     0
  9
$MENU
  1
.
  9
$ELEVATION
 40
0.0
  9
$PELEVATION
 40
0.0
  9
$THICKNESS
 40
0.0
  9
$LIMCHECK
 70
     0
  9
$BLIPMODE
 70
     0
  9
$CHAMFERA
 40
0.0
  9
$CHAMFERB
 40
0.0
  9
$SKPOLY
 70
     0
  9
$TDCREATE
 40
2457079.6131356019
  9
$TDUPDATE
 40
2457085.507941945
  9
$TDINDWG
 40
0.1878016319
  9
$TDUSRTIMER
 40
0.1878016319
  9
$USRTIMER
 70
     1
  9
$ANGBASE
 50
0.0
  9
$ANGDIR
 70
     0
  9
$PDMODE
 70
     3
  9
$PDSIZE
 40
-2.5
  9
$PLINEWID
 40
0.0
  9
$COORDS
 70
     1
  9
$SPLFRAME
 70
     0
  9
$SPLINETYPE
 70
     6
  9
$SPLINESEGS
 70
     8
  9
$ATTDIA
 70
     0
  9
$ATTREQ
 70
     1
  9
$HANDLING
 70
     1
  9
$HANDSEED
  5
33DF6A
  9
$SURFTAB1
 70
    12
  9
$SURFTAB2
 70
    12
  9
$SURFTYPE
 70
     6
  9
$SURFU
 70
     6
  9
$SURFV
 70
     6
  9
$UCSNAME
  2

  9
$UCSORG
 10
0.0
 20
0.0
 30
0.0
  9
$UCSXDIR
 10
1.0
 20
0.0
 30
0.0
  9
$UCSYDIR
 10
0.0
 20
1.0
 30
0.0
  9
$PUCSNAME
  2

  9
$PUCSORG
 10
0.0
 20
0.0
 30
0.0
  9
$PUCSXDIR
 10
1.0
 20
0.0
 30
0.0
  9
$PUCSYDIR
 10
0.0
 20
1.0
 30
0.0
  9
$USERI1
 70
     0
  9
$USERI2
 70
     0
  9
$USERI3
 70
     0
  9
$USERI4
 70
     0
  9
$USERI5
 70
     0
  9
$USERR1
 40
0.0
  9
$USERR2
 40
0.0
  9
$USERR3
 40
0.0
  9
$USERR4
 40
0.0
  9
$USERR5
 40
0.0
  9
$WORLDVIEW
 70
     1
  9
$SHADEDGE
 70
     3
  9
$SHADEDIF
 70
    70
  9
$TILEMODE
 70
     1
  9
$MAXACTVP
 70
    48
  9
$PLIMCHECK
 70
     0
  9
$PEXTMIN
 10
0.0
 20
0.0
 30
0.0
  9
$PEXTMAX
 10
0.0
 20
0.0
 30
0.0
  9
$PLIMMIN
 10
0.0
 20
0.0
  9
$PLIMMAX
 10
12.0
 20
9.0
  9
$UNITMODE
 70
     0
  9
$VISRETAIN
 70
     1
  9
$PLINEGEN
 70
     0
  9
$PSLTSCALE
 70
     1
  0
ENDSEC
  0
SECTION
  2
TABLES
  0
TABLE
  2
VPORT
 70
     1
  0
VPORT
  2
*ACTIVE
 70
     0
 10
0.0
 20
0.0
 11
1.0
 21
1.0
 12
-15.821704216499921
 22
-3.810587260750633
 13
0.0
 23
0.0
 14
10.0
 24
10.0
 15
10.0
 25
10.0
 16
0.0
 26
0.0
 36
1.0
 17
15.89171852314055
 27
3.7025810702456452
 37
43.925059244456151
 40
0.2175682929556788
 41
2.2283653846153841
 42
50.0
 43
0.0
 44
0.0
 50
0.0
 51
0.0
 71
     0
 72
  1000
 73
     1
 74
     3
 75
     0
 76
     0
 77
     0
 78
     0
  0
ENDTAB
  0
TABLE
  2
LTYPE
 70
     2
  0
LTYPE
  2
CONTINUOUS
 70
     0
  3
Solid line
 72
    65
 73
     0
 40
0.0
  0
ENDTAB
  0
TABLE
  2
LAYER
 70
     6
  0
LAYER
  2
0
 70
     0
 62
     7
  6
CONTINUOUS
  0
ENDTAB
  0
TABLE
  2
STYLE
 70
     1
  0
STYLE
  2
STANDARD
 70
     0
 40
0.0
 41
1.0
 50
0.0
 71
     0
 42
2.5
  3
txt
  4

  0
ENDTAB
  0
TABLE
  2
VIEW
 70
     2
  0
ENDTAB
  0
TABLE
  2
UCS
 70
     0
  0
ENDTAB
  0
TABLE
  2
APPID
 70
    16
  0
APPID
  2
ACAD
 70
     0
  0
APPID
  2
ACAD_PSEXT
 70
     0
  0
APPID
  2
ACADANNOPO
 70
     0
  0
APPID
  2
ACADANNOTATIVE
 70
     0
  0
APPID
  2
ACAD_DSTYLE_DIMJAG
 70
     0
  0
APPID
  2
ACAD_DSTYLE_DIMTALN
 70
     0
  0
APPID
  2
ACAD_MLEADERVER
 70
     0
  0
APPID
  2
ACAD_NAV_VCDISPLAY
 70
     0
  0
APPID
  2
ACAD_EXEMPT_FROM_CAD_STANDARDS
 70
     0
  0
APPID
  2
AVE_RENDER
 70
     0
  0
APPID
  2
AVE_ENTITY_MATERIAL
 70
     0
  0
APPID
  2
AVE_FINISH
 70
     0
  0
APPID
  2
AVE_MATERIAL
 70
     0
  0
APPID
  2
AVE_GLOBAL
 70
     0
  0
APPID
  2
ACAECLAYERSTANDARD
 70
     0
  0
APPID
  2
ACCMTRANSPARENCY
 70
     0
  0
ENDTAB
  0
TABLE
  2
DIMSTYLE
 70
     3
  0
DIMSTYLE
  2
STANDARD
 70
     0
  3

  4

  5

  6

  7

 40
1.0
 41
0.18
 42
0.0625
 43
0.38
 44
0.18
 45
0.0
 46
0.0
 47
0.0
 48
0.0
140
0.18
141
0.09
142
0.0
143
25.399999999999999
144
1.0
145
0.0
146
1.0
147
0.09
 71
     0
 72
     0
 73
     1
 74
     1
 75
     0
 76
     0
 77
     0
 78
     0
170
     0
171
     2
172
     0
173
     0
174
     0
175
     0
176
     0
177
     0
178
     0
  0
DIMSTYLE
  2
ISO-25
 70
     0
  3

  4

  5

  6

  7

 40
1.0
 41
2.5
 42
0.625
 43
3.75
 44
1.25
 45
0.0
 46
0.0
 47
0.0
 48
0.0
140
2.5
141
2.5
142
0.0
143
0.03937007874016
144
1.0
145
0.0
146
1.0
147
0.625
 71
     0
 72
     0
 73
     0
 74
     0
 75
     0
 76
     0
 77
     1
 78
     8
170
     0
171
     3
172
     1
173
     0
174
     0
175
     0
176
     0
177
     0
178
     0
  0
ENDTAB
  0
ENDSEC
  0
SECTION
  2
BLOCKS
  0
BLOCK
  8
0
  2
$MODEL_SPACE
 70
     0
 10
0.0
 20
0.0
 30
0.0
  3
$MODEL_SPACE
  1

  0
ENDBLK
  5
21
  8
0
  0
BLOCK
 67
     1
  8
0
  2
$PAPER_SPACE
 70
     0
 10
0.0
 20
0.0
 30
0.0
  3
$PAPER_SPACE
  1

  0
ENDBLK
  5
D5
 67
     1
  8
0
  0
ENDSEC
  0
SECTION
  2
ENTITIES
  0
POLYLINE
  5
33DE80
  8
0
 66
     1
 10
0.0
 20
0.0
 30
0.0
 70
     1
  0
VERTEX
  5
33DF14
  8
0
 10
0.0013300244513535
 20
-0.0000465492941903
 30
0.0
  0
VERTEX
  5
33DF15
  8
0
 10
0.0010397446101359
 20
-0.0001602107790333
 30
0.0
  0
VERTEX
  5
33DF16
  8
0
 10
0.0007936848885092
 20
-0.0003529515914532
 30
0.0
  0
VERTEX
  5
33DF17
  8
0
 10
0.0006028075883922
 20
-0.0006009439699547
 30
0.0
  0
VERTEX
  5
33DF18
  8
0
 10
0.0004918656131819
 20
-0.0008936050262754
 30
0.0
  0
VERTEX
  5
33DF19
  8
0
 10
0.0004455566413657
 20
-0.0012044442864358
 30
0.0
  0
VERTEX
  5
33DF1A
  8
0
 10
0.0006160665107481
 20
-0.0342356669069798
 30
0.0
  0
VERTEX
  5
33DF1B
  8
0
 10
0.0006190454545589
 20
-0.0346633884437537
 30
0.0
  0
VERTEX
  5
33DF1C
  8
0
 10
0.0005060908274117
 20
-0.0346733237057176
 30
0.0
  0
VERTEX
  5
33DF1D
  8
0
 10
0.0003505297964977
 20
-0.0347268936603858
 30
0.0
  0
VERTEX
  5
33DF1E
  8
0
 10
0.0002294709947565
 20
-0.0348082193289063
 30
0.0
  0
VERTEX
  5
33DF1F
  8
0
 10
0.000114796075939
 20
-0.0349314933782246
 30
0.0
  0
VERTEX
  5
33DF20
  8
0
 10
0.0000374057987216
 20
-0.0350992933646653
 30
0.0
  0
VERTEX
  5
33DF21
  8
0
 10
0.0
 20
-0.0353004828212674
 30
0.0
  0
VERTEX
  5
33DF22
  8
0
 10
0.0000145935058594
 20
-0.0380322088954863
 30
0.0
  0
VERTEX
  5
33DF23
  8
0
 10
0.0000501381955827
 20
-0.0418808797217366
 30
0.0
  0
VERTEX
  5
33DF24
  8
0
 10
0.0011100708007812
 20
-0.1566471564052518
 30
0.0
  0
VERTEX
  5
33DF25
  8
0
 10
0.0011546873541614
 20
-0.1610714124028882
 30
0.0
  0
VERTEX
  5
33DF26
  8
0
 10
0.001306646958487
 20
-0.1654930907530911
 30
0.0
  0
VERTEX
  5
33DF27
  8
0
 10
0.0016511863142753
 20
-0.16990365916655
 30
0.0
  0
VERTEX
  5
33DF28
  8
0
 10
0.0022655457126802
 20
-0.174284388796078
 30
0.0
  0
VERTEX
  5
33DF29
  8
0
 10
0.0032163679957081
 20
-0.1786042581217647
 30
0.0
  0
VERTEX
  5
33DF2A
  8
0
 10
0.0045277806097918
 20
-0.1828284993099591
 30
0.0
  0
VERTEX
  5
33DF2B
  8
0
 10
0.0062086564231248
 20
-0.1869196892658405
 30
0.0
  0
VERTEX
  5
33DF2C
  8
0
 10
0.0082459357800812
 20
-0.1908456516527123
 30
0.0
  0
VERTEX
  5
33DF2D
  8
0
 10
0.0106172558092011
 20
-0.1945794113121864
 30
0.0
  0
VERTEX
  5
33DF2E
  8
0
 10
0.01330118261105
 20
-0.1980951995597899
 30
0.0
  0
VERTEX
  5
33DF2F
  8
0
 10
0.0162784562543475
 20
-0.2013662634896529
 30
0.0
  0
VERTEX
  5
33DF30
  8
0
 10
0.0195308977061015
 20
-0.2043637800485891
 30
0.0
  0
VERTEX
  5
33DF31
  8
0
 10
0.0230406868040641
 20
-0.2070551902491226
 30
0.0
  0
VERTEX
  5
33DF32
  8
0
 10
0.02679205268544
 20
-0.2093977221548942
 30
0.0
  0
VERTEX
  5
33DF33
  8
0
 10
0.0307614460541411
 20
-0.2113479394095265
 30
0.0
  0
VERTEX
  5
33DF34
  8
0
 10
0.0349038536279362
 20
-0.2128977178054632
 30
0.0
  0
VERTEX
  5
33DF35
  8
0
 10
0.0391718119145135
 20
-0.21405891636495
 30
0.0
  0
VERTEX
  5
33DF36
  8
0
 10
0.0435188782651158
 20
-0.2148780705975192
 30
0.0
  0
VERTEX
  5
33DF37
  8
0
 10
0.0479094219547858
 20
-0.215420683649909
 30
0.0
  0
VERTEX
  5
33DF38
  8
0
 10
0.0523210979948793
 20
-0.2157535860449494
 30
0.0
  0
VERTEX
  5
33DF39
  8
0
 10
0.0567416492739731
 20
-0.215937113655892
 30
0.0
  0
VERTEX
  5
33DF3A
  8
0
 10
0.0611654600010452
 20
-0.2160113425611118
 30
0.0
  0
VERTEX
  5
33DF3B
  8
0
 10
0.0655899425519293
 20
-0.2160123812273247
 30
0.0
  0
VERTEX
  5
33DF3C
  8
0
 10
0.0744386707293206
 20
-0.2160123812273247
 30
0.0
  0
VERTEX
  5
33DF3D
  8
0
 10
0.0788631532802048
 20
-0.2160113425611118
 30
0.0
  0
VERTEX
  5
33DF3E
  8
0
 10
0.0832869640072768
 20
-0.215937113655892
 30
0.0
  0
VERTEX
  5
33DF3F
  8
0
 10
0.0877075152863706
 20
-0.2157535860449494
 30
0.0
  0
VERTEX
  5
33DF40
  8
0
 10
0.0921191913264642
 20
-0.215420683649909
 30
0.0
  0
VERTEX
  5
33DF41
  8
0
 10
0.0965097350161342
 20
-0.2148780705975192
 30
0.0
  0
VERTEX
  5
33DF42
  8
0
 10
0.1008568013667365
 20
-0.21405891636495
 30
0.0
  0
VERTEX
  5
33DF43
  8
0
 10
0.1092671672271088
 20
-0.2113479394095265
 30
0.0
  0
VERTEX
  5
33DF44
  8
0
 10
0.1132365605958099
 20
-0.2093977221548942
 30
0.0
  0
VERTEX
  5
33DF45
  8
0
 10
0.1169879264771859
 20
-0.2070551902491226
 30
0.0
  0
VERTEX
  5
33DF46
  8
0
 10
0.1204977155751485
 20
-0.2043637800485891
 30
0.0
  0
VERTEX
  5
33DF47
  8
0
 10
0.1237501570269024
 20
-0.2013662634896529
 30
0.0
  0
VERTEX
  5
33DF48
  8
0
 10
0.1267274306702
 20
-0.1980951995597899
 30
0.0
  0
VERTEX
  5
33DF49
  8
0
 10
0.1294113574720488
 20
-0.1945794113121864
 30
0.0
  0
VERTEX
  5
33DF4A
  8
0
 10
0.1317826775011687
 20
-0.1908456516527123
 30
0.0
  0
VERTEX
  5
33DF4B
  8
0
 10
0.1338199568581251
 20
-0.1869196892658405
 30
0.0
  0
VERTEX
  5
33DF4C
  8
0
 10
0.1355008326714582
 20
-0.1828284993099591
 30
0.0
  0
VERTEX
  5
33DF4D
  8
0
 10
0.1368122452855418
 20
-0.1786042581217647
 30
0.0
  0
VERTEX
  5
33DF4E
  8
0
 10
0.1377630675685698
 20
-0.1742843887960781
 30
0.0
  0
VERTEX
  5
33DF4F
  8
0
 10
0.1383774269669746
 20
-0.1699036591665501
 30
0.0
  0
VERTEX
  5
33DF50
  8
0
 10
0.138721966322763
 20
-0.1654930907530911
 30
0.0
  0
VERTEX
  5
33DF51
  8
0
 10
0.1388739259270886
 20
-0.1610714124028882
 30
0.0
  0
VERTEX
  5
33DF52
  8
0
 10
0.1389185424804687
 20
-0.1566471564052519
 30
0.0
  0
VERTEX
  5
33DF53
  8
0
 10
0.1400140197753906
 20
-0.0380322088954863
 30
0.0
  0
VERTEX
  5
33DF54
  8
0
 10
0.14002861328125
 20
-0.0353004828212676
 30
0.0
  0
VERTEX
  5
33DF55
  8
0
 10
0.1399912074825284
 20
-0.0350992933646653
 30
0.0
  0
VERTEX
  5
33DF56
  8
0
 10
0.1399138172053111
 20
-0.0349314933782246
 30
0.0
  0
VERTEX
  5
33DF57
  8
0
 10
0.1397991422864936
 20
-0.0348082193289063
 30
0.0
  0
VERTEX
  5
33DF58
  8
0
 10
0.1396646685780345
 20
-0.0347214001731711
 30
0.0
  0
VERTEX
  5
33DF59
  8
0
 10
0.1395225224538384
 20
-0.0346733237057177
 30
0.0
  0
VERTEX
  5
33DF5A
  8
0
 10
0.1394095678281717
 20
-0.034663388443884
 30
0.0
  0
VERTEX
  5
33DF5B
  8
0
 10
0.1395830566413658
 20
-0.0012044442864358
 30
0.0
  0
VERTEX
  5
33DF5C
  8
0
 10
0.1395367476695496
 20
-0.0008936050262755
 30
0.0
  0
VERTEX
  5
33DF5D
  8
0
 10
0.1394258056943393
 20
-0.0006009439699548
 30
0.0
  0
VERTEX
  5
33DF5E
  8
0
 10
0.1392349283942223
 20
-0.0003529515914532
 30
0.0
  0
VERTEX
  5
33DF5F
  8
0
 10
0.1389888686725956
 20
-0.0001602107790334
 30
0.0
  0
VERTEX
  5
33DF60
  8
0
 10
0.138698588831378
 20
-0.0000465492941903
 30
0.0
  0
VERTEX
  5
33DF61
  8
0
 10
0.1383894104011314
 20
0.0000000002173484
 30
0.0
  0
VERTEX
  5
33DF62
  8
0
 10
0.0016392028816001
 20
0.0000000002173484
 30
0.0
  0
SEQEND
  5
33DF63
  8
0
  0
LINE
  5
33DE93
  8
0
 10
0.0006190454545589
 20
-0.0346633884437537
 30
0.0
 11
0.0006941256592898
 21
-0.034656769711573
 31
0.0
  0
LINE
  5
33DE94
  8
0
 10
0.0006941256592898
 20
-0.034656769711573
 30
0.0
 11
0.000828515694701
 21
-0.0346330397759263
 31
0.0
  0
LINE
  5
33DE95
  8
0
 10
0.000828515694701
 20
-0.0346330397759263
 30
0.0
 11
0.0009558102123171
 21
-0.0345625541390638
 31
0.0
  0
LINE
  5
33DE96
  8
0
 10
0.0009558102123171
 20
-0.0345625541390638
 30
0.0
 11
0.001068121424328
 21
-0.0344525356552861
 31
0.0
  0
LINE
  5
33DE97
  8
0
 10
0.001068121424328
 20
-0.0344525356552861
 30
0.0
 11
0.0011632625039493
 21
-0.0343227181217918
 31
0.0
  0
LINE
  5
33DE98
  8
0
 10
0.0011632625039493
 20
-0.0343227181217918
 30
0.0
 11
0.0012388366888408
 21
-0.0341852414884451
 31
0.0
  0
LINE
  5
33DE99
  8
0
 10
0.0012388366888408
 20
-0.0341852414884451
 30
0.0
 11
0.0012942819178585
 21
-0.0340551858118886
 31
0.0
  0
LINE
  5
33DE9A
  8
0
 10
0.0012942819178585
 20
-0.0340551858118886
 30
0.0
 11
0.0012947850352667
 21
-0.0336681558097213
 31
0.0
  0
LINE
  5
33DE9B
  8
0
 10
0.0012947850352667
 20
-0.0336681558097213
 30
0.0
 11
0.0013515502908359
 21
-0.0335564697038772
 31
0.0
  0
LINE
  5
33DE9C
  8
0
 10
0.0013515502908359
 20
-0.0335564697038772
 30
0.0
 11
0.0014195109752757
 21
-0.033438801727244
 31
0.0
  0
LINE
  5
33DE9D
  8
0
 10
0.0014195109752757
 20
-0.033438801727244
 30
0.0
 11
0.0015324995025066
 21
-0.0332929711981336
 31
0.0
  0
LINE
  5
33DE9E
  8
0
 10
0.0015324995025066
 20
-0.0332929711981336
 30
0.0
 11
0.0016485073600557
 21
-0.0331783499341663
 31
0.0
  0
LINE
  5
33DE9F
  8
0
 10
0.0016485073600557
 20
-0.0331783499341663
 30
0.0
 11
0.0017717337646025
 21
-0.0330983951086444
 31
0.0
  0
LINE
  5
33DEA0
  8
0
 10
0.0017717337646025
 20
-0.0330983951086444
 30
0.0
 11
0.0018943054199219
 21
-0.0330676832237301
 31
0.0
  0
LINE
  5
33DEA1
  8
0
 10
0.0018943054199219
 20
-0.0330676832237301
 30
0.0
 11
0.0204943054199219
 21
-0.0330683481425266
 31
0.0
  0
ARC
  5
33DEA2
  8
0
 10
0.0204942911199681
 20
-0.0334683656218
 30
0.0
 40
0.000400017479529
 50
0.2284456969484047
 51
89.997951772003177
  0
LINE
  5
33DEA3
  8
0
 10
0.0208943054199219
 20
-0.0334667707045031
 30
0.0
 11
0.0208943054199219
 21
-0.0346567694423613
 31
0.0
  0
LINE
  5
33DEA4
  8
0
 10
0.0208943054199219
 20
-0.0346567694423613
 30
0.0
 11
0.021214306640625
 21
-0.0346567694423613
 31
0.0
  0
LINE
  5
33DEA5
  8
0
 10
0.021214306640625
 20
-0.0346567694423613
 30
0.0
 11
0.0212143063599126
 21
-0.0330593328053852
 31
0.0
  0
LINE
  5
33DEA6
  8
0
 10
0.0212143063599126
 20
-0.0330593328053852
 30
0.0
 11
0.030814306640625
 21
-0.0330593329189239
 31
0.0
  0
LINE
  5
33DEA7
  8
0
 10
0.030814306640625
 20
-0.0330593329189239
 30
0.0
 11
0.030814306640625
 21
-0.0335043951747832
 31
0.0
  0
LINE
  5
33DEA8
  8
0
 10
0.030814306640625
 20
-0.0335043951747832
 30
0.0
 11
0.0308718128322628
 21
-0.0336140508729121
 31
0.0
  0
LINE
  5
33DEA9
  8
0
 10
0.0308718128322628
 20
-0.0336140508729121
 30
0.0
 11
0.0310491762030221
 21
-0.0337142291348548
 31
0.0
  0
LINE
  5
33DEAA
  8
0
 10
0.0310491762030221
 20
-0.0337142291348548
 30
0.0
 11
0.0313343078613281
 21
-0.0337621588466582
 31
0.0
  0
LINE
  5
33DEAB
  8
0
 10
0.0313343078613281
 20
-0.0337621588466582
 30
0.0
 11
0.1086943054199219
 21
-0.0337621588466582
 31
0.0
  0
LINE
  5
33DEAC
  8
0
 10
0.1086943054199219
 20
-0.0337621588466582
 30
0.0
 11
0.1089794370782279
 21
-0.0337142291348548
 31
0.0
  0
LINE
  5
33DEAD
  8
0
 10
0.1089794370782279
 20
-0.0337142291348548
 30
0.0
 11
0.1091568004489873
 21
-0.0336140508729121
 31
0.0
  0
LINE
  5
33DEAE
  8
0
 10
0.1091568004489873
 20
-0.0336140508729121
 30
0.0
 11
0.109214306640625
 21
-0.0335043951747832
 31
0.0
  0
LINE
  5
33DEAF
  8
0
 10
0.109214306640625
 20
-0.0335043951747832
 30
0.0
 11
0.109214306640625
 21
-0.0330593329189239
 31
0.0
  0
LINE
  5
33DEB0
  8
0
 10
0.109214306640625
 20
-0.0330593329189239
 30
0.0
 11
0.118814306640625
 21
-0.0330593329189239
 31
0.0
  0
LINE
  5
33DEB1
  8
0
 10
0.118814306640625
 20
-0.0330593329189239
 30
0.0
 11
0.118814306640625
 21
-0.0346567694423613
 31
0.0
  0
LINE
  5
33DEB2
  8
0
 10
0.118814306640625
 20
-0.0346567694423613
 30
0.0
 11
0.1191343078613281
 21
-0.0346567694423613
 31
0.0
  0
LINE
  5
33DEB3
  8
0
 10
0.1191343078613281
 20
-0.0346567694423613
 30
0.0
 11
0.1191343078613281
 21
-0.0334667707045032
 31
0.0
  0
LINE
  5
33DEB4
  8
0
 10
0.1191343078613281
 20
-0.0334667707045032
 30
0.0
 11
0.1191500893591583
 21
-0.0333745077881355
 31
0.0
  0
LINE
  5
33DEB5
  8
0
 10
0.1191500893591583
 20
-0.0333745077881355
 30
0.0
 11
0.1191875703155388
 21
-0.0332813707777744
 31
0.0
  0
LINE
  5
33DEB6
  8
0
 10
0.1191875703155388
 20
-0.0332813707777744
 30
0.0
 11
0.1192516715734245
 21
-0.0331979063149337
 31
0.0
  0
LINE
  5
33DEB7
  8
0
 10
0.1192516715734245
 20
-0.0331979063149337
 30
0.0
 11
0.1193342598262909
 21
-0.0331302683833435
 31
0.0
  0
LINE
  5
33DEB8
  8
0
 10
0.1193342598262909
 20
-0.0331302683833435
 30
0.0
 11
0.1194312212643158
 21
-0.0330874025489794
 31
0.0
  0
LINE
  5
33DEB9
  8
0
 10
0.1194312212643158
 20
-0.0330874025489794
 30
0.0
 11
0.1195343078613282
 21
-0.0330683481425266
 31
0.0
  0
LINE
  5
33DEBA
  8
0
 10
0.1195343078613282
 20
-0.0330683481425266
 30
0.0
 11
0.1381343078613292
 21
-0.0330683481425266
 31
0.0
  0
LINE
  5
33DEBB
  8
0
 10
0.1381343078613292
 20
-0.0330683481425266
 30
0.0
 11
0.1382568795166475
 21
-0.0330983951086444
 31
0.0
  0
LINE
  5
33DEBC
  8
0
 10
0.1382568795166475
 20
-0.0330983951086444
 30
0.0
 11
0.1383801059211943
 21
-0.0331783499341663
 31
0.0
  0
LINE
  5
33DEBD
  8
0
 10
0.1383801059211943
 20
-0.0331783499341663
 30
0.0
 11
0.1384961137787435
 21
-0.0332929711981336
 31
0.0
  0
LINE
  5
33DEBE
  8
0
 10
0.1384961137787435
 20
-0.0332929711981336
 30
0.0
 11
0.1386091023059743
 21
-0.0334388017272441
 31
0.0
  0
LINE
  5
33DEBF
  8
0
 10
0.1386091023059743
 20
-0.0334388017272441
 30
0.0
 11
0.1386770629904141
 21
-0.0335564697038773
 31
0.0
  0
LINE
  5
33DEC0
  8
0
 10
0.1386770629904141
 20
-0.0335564697038773
 30
0.0
 11
0.1387338282459833
 21
-0.0336681558097213
 31
0.0
  0
LINE
  5
33DEC1
  8
0
 10
0.1387338282459833
 20
-0.0336681558097213
 30
0.0
 11
0.1387344382421299
 21
-0.0340555472911948
 31
0.0
  0
LINE
  5
33DEC2
  8
0
 10
0.1387344382421299
 20
-0.0340555472911948
 30
0.0
 11
0.1387897765924092
 21
-0.0341852414884452
 31
0.0
  0
LINE
  5
33DEC3
  8
0
 10
0.1387897765924092
 20
-0.0341852414884452
 30
0.0
 11
0.1388653507773008
 21
-0.0343227181217919
 31
0.0
  0
LINE
  5
33DEC4
  8
0
 10
0.1388653507773008
 20
-0.0343227181217919
 30
0.0
 11
0.138960491856922
 21
-0.0344525356552861
 31
0.0
  0
LINE
  5
33DEC5
  8
0
 10
0.138960491856922
 20
-0.0344525356552861
 30
0.0
 11
0.139072803068933
 21
-0.0345625541390639
 31
0.0
  0
LINE
  5
33DEC6
  8
0
 10
0.139072803068933
 20
-0.0345625541390639
 30
0.0
 11
0.139200097586549
 21
-0.0346330397759263
 31
0.0
  0
LINE
  5
33DEC7
  8
0
 10
0.139200097586549
 20
-0.0346330397759263
 30
0.0
 11
0.13933409285021
 21
-0.0346567309197309
 31
0.0
  0
LINE
  5
33DEC8
  8
0
 10
0.13933409285021
 20
-0.0346567309197309
 30
0.0
 11
0.1394095678281717
 21
-0.034663388443879
 31
0.0
  0
POLYLINE
  5
33DEC9
  8
0
 66
     1
 10
0.0
 20
0.0
 30
0.0
  0
VERTEX
  5
33DF67
  8
0
 10
0.021214306640625
 20
-0.0346567694423613
 30
0.0
  0
VERTEX
  5
33DF68
  8
0
 10
0.118814306640625
 20
-0.0346567694423613
 30
0.0
  0
SEQEND
  5
33DF69
  8
0
  0
ENDSEC
  0
EOF
